ISO-10303-21;
HEADER;
/* Generated by software containing ST-Developer
 * from STEP Tools, Inc. (www.steptools.com) 
 */
/* OPTION: using custom schema-name function */

FILE_DESCRIPTION(
/* description */ (''),
/* implementation_level */ '2;1');

FILE_NAME(
/* name */ 'QRA4-kpl..stp',
/* time_stamp */ '2009-06-26T08:59:23+02:00',
/* author */ (''),
/* organization */ (''),
/* preprocessor_version */ 'ST-DEVELOPER v11',
/* originating_system */ 'SIEMENS UGS NX 6.0',
/* authorisation */ '');

FILE_SCHEMA (('AUTOMOTIVE_DESIGN { 1 0 10303 214 1 1 1 1 }'));
ENDSEC;

DATA;
#10=CONTEXT_DEPENDENT_SHAPE_REPRESENTATION(#16,#31);
#11=CONTEXT_DEPENDENT_SHAPE_REPRESENTATION(#17,#32);
#12=CONTEXT_DEPENDENT_SHAPE_REPRESENTATION(#18,#33);
#13=NEXT_ASSEMBLY_USAGE_OCCURRENCE('1001',' ','7428400040',#37,#36,$);
#14=NEXT_ASSEMBLY_USAGE_OCCURRENCE('1002',' ','7416000060',#37,#35,$);
#15=NEXT_ASSEMBLY_USAGE_OCCURRENCE('1003',' ','7417100040',#37,#34,$);
#16=(
REPRESENTATION_RELATIONSHIP(' ',' ',#62,#63)
REPRESENTATION_RELATIONSHIP_WITH_TRANSFORMATION(#19)
SHAPE_REPRESENTATION_RELATIONSHIP()
);
#17=(
REPRESENTATION_RELATIONSHIP(' ',' ',#61,#63)
REPRESENTATION_RELATIONSHIP_WITH_TRANSFORMATION(#20)
SHAPE_REPRESENTATION_RELATIONSHIP()
);
#18=(
REPRESENTATION_RELATIONSHIP(' ',' ',#60,#63)
REPRESENTATION_RELATIONSHIP_WITH_TRANSFORMATION(#21)
SHAPE_REPRESENTATION_RELATIONSHIP()
);
#19=ITEM_DEFINED_TRANSFORMATION(' ',' ',#283,#319);
#20=ITEM_DEFINED_TRANSFORMATION(' ',' ',#283,#320);
#21=ITEM_DEFINED_TRANSFORMATION(' ',' ',#283,#321);
#22=GEOMETRIC_CURVE_SET('None',(#401));
#23=SHAPE_DEFINITION_REPRESENTATION(#27,#60);
#24=SHAPE_DEFINITION_REPRESENTATION(#28,#61);
#25=SHAPE_DEFINITION_REPRESENTATION(#29,#62);
#26=SHAPE_DEFINITION_REPRESENTATION(#30,#63);
#27=PRODUCT_DEFINITION_SHAPE('','',#34);
#28=PRODUCT_DEFINITION_SHAPE('','',#35);
#29=PRODUCT_DEFINITION_SHAPE('','',#36);
#30=PRODUCT_DEFINITION_SHAPE('','',#37);
#31=PRODUCT_DEFINITION_SHAPE(' ','NAUO PRDDFN',#13);
#32=PRODUCT_DEFINITION_SHAPE(' ','NAUO PRDDFN',#14);
#33=PRODUCT_DEFINITION_SHAPE(' ','NAUO PRDDFN',#15);
#34=PRODUCT_DEFINITION(' ','',#42,#38);
#35=PRODUCT_DEFINITION(' ','',#43,#39);
#36=PRODUCT_DEFINITION(' ','',#44,#40);
#37=PRODUCT_DEFINITION(' ','',#45,#41);
#38=PRODUCT_DEFINITION_CONTEXT('part definition',#59,'design');
#39=PRODUCT_DEFINITION_CONTEXT('part definition',#59,'design');
#40=PRODUCT_DEFINITION_CONTEXT('part definition',#59,'design');
#41=PRODUCT_DEFINITION_CONTEXT('part definition',#59,'design');
#42=PRODUCT_DEFINITION_FORMATION_WITH_SPECIFIED_SOURCE(' ',' ',#50,.NOT_KNOWN.);
#43=PRODUCT_DEFINITION_FORMATION_WITH_SPECIFIED_SOURCE(' ',' ',#51,.NOT_KNOWN.);
#44=PRODUCT_DEFINITION_FORMATION_WITH_SPECIFIED_SOURCE(' ',' ',#52,.NOT_KNOWN.);
#45=PRODUCT_DEFINITION_FORMATION_WITH_SPECIFIED_SOURCE(' ',' ',#53,.NOT_KNOWN.);
#46=PRODUCT_RELATED_PRODUCT_CATEGORY('part','',(#50));
#47=PRODUCT_RELATED_PRODUCT_CATEGORY('part','',(#51));
#48=PRODUCT_RELATED_PRODUCT_CATEGORY('part','',(#52));
#49=PRODUCT_RELATED_PRODUCT_CATEGORY('part','',(#53));
#50=PRODUCT('014003_00','014003_00',' ',(#54));
#51=PRODUCT('014004_00','014004_00',' ',(#55));
#52=PRODUCT('014005_00','014005_00',' ',(#56));
#53=PRODUCT('013847_00','013847_00',' ',(#57));
#54=PRODUCT_CONTEXT(' ',#59,'mechanical');
#55=PRODUCT_CONTEXT(' ',#59,'mechanical');
#56=PRODUCT_CONTEXT(' ',#59,'mechanical');
#57=PRODUCT_CONTEXT(' ',#59,'mechanical');
#58=APPLICATION_PROTOCOL_DEFINITION('international standard',
'automotive_design',2001,#59);
#59=APPLICATION_CONTEXT(
'core data for automotive mechanical design processes');
#60=SHAPE_REPRESENTATION('014003_00-None',(#283,#83),#463);
#61=SHAPE_REPRESENTATION('014004_00-None',(#283,#82),#462);
#62=SHAPE_REPRESENTATION('014005_00-SOLID',(#283,#81),#461);
#63=SHAPE_REPRESENTATION('013847_00-None',(#283,#319,#320,#321,#22),#460);
#64=SURFACE_STYLE_USAGE(.BOTH.,#67);
#65=SURFACE_STYLE_USAGE(.BOTH.,#68);
#66=SURFACE_STYLE_USAGE(.BOTH.,#69);
#67=SURFACE_SIDE_STYLE('',(#70));
#68=SURFACE_SIDE_STYLE('',(#71));
#69=SURFACE_SIDE_STYLE('',(#72));
#70=SURFACE_STYLE_FILL_AREA(#73);
#71=SURFACE_STYLE_FILL_AREA(#74);
#72=SURFACE_STYLE_FILL_AREA(#75);
#73=FILL_AREA_STYLE('',(#76));
#74=FILL_AREA_STYLE('',(#77));
#75=FILL_AREA_STYLE('',(#78));
#76=FILL_AREA_STYLE_COLOUR('',#79);
#77=FILL_AREA_STYLE_COLOUR('',#79);
#78=FILL_AREA_STYLE_COLOUR('',#80);
#79=DRAUGHTING_PRE_DEFINED_COLOUR('white');
#80=DRAUGHTING_PRE_DEFINED_COLOUR('cyan');
#81=MANIFOLD_SOLID_BREP('',#84);
#82=MANIFOLD_SOLID_BREP('',#85);
#83=MANIFOLD_SOLID_BREP('',#86);
#84=CLOSED_SHELL('',(#121,#122,#123,#124,#125,#126,#127,#128,#129,#130,#131));
#85=CLOSED_SHELL('',(#132,#133,#134,#135,#136));
#86=CLOSED_SHELL('',(#137,#138,#139));
#87=TOROIDAL_SURFACE('',#298,13.841,0.5);
#88=CONICAL_SURFACE('',#297,13.341,45.);
#89=CYLINDRICAL_SURFACE('',#288,13.341);
#90=CYLINDRICAL_SURFACE('',#296,15.25);
#91=CYLINDRICAL_SURFACE('',#300,1.4);
#92=CYLINDRICAL_SURFACE('',#303,1.4);
#93=CYLINDRICAL_SURFACE('',#310,17.5);
#94=CYLINDRICAL_SURFACE('',#313,11.);
#95=CYLINDRICAL_SURFACE('',#318,15.25);
#96=FACE_BOUND('',#158,.T.);
#97=FACE_BOUND('',#159,.T.);
#98=FACE_BOUND('',#160,.T.);
#99=FACE_BOUND('',#161,.T.);
#100=FACE_BOUND('',#162,.T.);
#101=FACE_BOUND('',#163,.T.);
#102=FACE_BOUND('',#164,.T.);
#103=FACE_BOUND('',#165,.T.);
#104=FACE_BOUND('',#166,.T.);
#105=FACE_BOUND('',#167,.T.);
#106=FACE_BOUND('',#168,.T.);
#107=FACE_BOUND('',#169,.T.);
#108=FACE_BOUND('',#170,.T.);
#109=FACE_BOUND('',#171,.T.);
#110=FACE_BOUND('',#172,.T.);
#111=FACE_BOUND('',#174,.T.);
#112=FACE_BOUND('',#175,.T.);
#113=FACE_BOUND('',#178,.T.);
#114=FACE_BOUND('',#179,.T.);
#115=FACE_BOUND('',#180,.T.);
#116=FACE_BOUND('',#181,.T.);
#117=FACE_BOUND('',#183,.T.);
#118=FACE_BOUND('',#184,.T.);
#119=FACE_BOUND('',#187,.T.);
#120=FACE_BOUND('',#188,.T.);
#121=ADVANCED_FACE('',(#150),#140,.T.);
#122=ADVANCED_FACE('',(#96,#97),#89,.T.);
#123=ADVANCED_FACE('',(#98,#99,#100),#141,.T.);
#124=ADVANCED_FACE('',(#101,#102),#142,.T.);
#125=ADVANCED_FACE('',(#103,#104),#90,.T.);
#126=ADVANCED_FACE('',(#105,#106),#88,.T.);
#127=ADVANCED_FACE('',(#107,#108),#87,.F.);
#128=ADVANCED_FACE('',(#109,#110),#91,.T.);
#129=ADVANCED_FACE('',(#151),#143,.T.);
#130=ADVANCED_FACE('',(#111,#112),#92,.T.);
#131=ADVANCED_FACE('',(#152),#144,.T.);
#132=ADVANCED_FACE('',(#153),#145,.T.);
#133=ADVANCED_FACE('',(#113,#114),#146,.T.);
#134=ADVANCED_FACE('',(#115,#116),#93,.T.);
#135=ADVANCED_FACE('',(#154),#147,.T.);
#136=ADVANCED_FACE('',(#117,#118),#94,.T.);
#137=ADVANCED_FACE('',(#155),#148,.T.);
#138=ADVANCED_FACE('',(#156),#149,.T.);
#139=ADVANCED_FACE('',(#119,#120),#95,.T.);
#140=PLANE('',#285);
#141=PLANE('',#292);
#142=PLANE('',#295);
#143=PLANE('',#301);
#144=PLANE('',#304);
#145=PLANE('',#306);
#146=PLANE('',#309);
#147=PLANE('',#312);
#148=PLANE('',#315);
#149=PLANE('',#317);
#150=FACE_OUTER_BOUND('',#157,.T.);
#151=FACE_OUTER_BOUND('',#173,.T.);
#152=FACE_OUTER_BOUND('',#176,.T.);
#153=FACE_OUTER_BOUND('',#177,.T.);
#154=FACE_OUTER_BOUND('',#182,.T.);
#155=FACE_OUTER_BOUND('',#185,.T.);
#156=FACE_OUTER_BOUND('',#186,.T.);
#157=EDGE_LOOP('',(#189));
#158=EDGE_LOOP('',(#190));
#159=EDGE_LOOP('',(#191));
#160=EDGE_LOOP('',(#192));
#161=EDGE_LOOP('',(#193));
#162=EDGE_LOOP('',(#194));
#163=EDGE_LOOP('',(#195));
#164=EDGE_LOOP('',(#196));
#165=EDGE_LOOP('',(#197));
#166=EDGE_LOOP('',(#198));
#167=EDGE_LOOP('',(#199));
#168=EDGE_LOOP('',(#200));
#169=EDGE_LOOP('',(#201));
#170=EDGE_LOOP('',(#202));
#171=EDGE_LOOP('',(#203));
#172=EDGE_LOOP('',(#204));
#173=EDGE_LOOP('',(#205));
#174=EDGE_LOOP('',(#206));
#175=EDGE_LOOP('',(#207));
#176=EDGE_LOOP('',(#208));
#177=EDGE_LOOP('',(#209));
#178=EDGE_LOOP('',(#210));
#179=EDGE_LOOP('',(#211));
#180=EDGE_LOOP('',(#212));
#181=EDGE_LOOP('',(#213));
#182=EDGE_LOOP('',(#214));
#183=EDGE_LOOP('',(#215));
#184=EDGE_LOOP('',(#216));
#185=EDGE_LOOP('',(#217));
#186=EDGE_LOOP('',(#218));
#187=EDGE_LOOP('',(#219));
#188=EDGE_LOOP('',(#220));
#189=ORIENTED_EDGE('',*,*,#237,.T.);
#190=ORIENTED_EDGE('',*,*,#238,.T.);
#191=ORIENTED_EDGE('',*,*,#239,.T.);
#192=ORIENTED_EDGE('',*,*,#240,.F.);
#193=ORIENTED_EDGE('',*,*,#241,.F.);
#194=ORIENTED_EDGE('',*,*,#242,.T.);
#195=ORIENTED_EDGE('',*,*,#243,.T.);
#196=ORIENTED_EDGE('',*,*,#244,.F.);
#197=ORIENTED_EDGE('',*,*,#242,.F.);
#198=ORIENTED_EDGE('',*,*,#244,.T.);
#199=ORIENTED_EDGE('',*,*,#237,.F.);
#200=ORIENTED_EDGE('',*,*,#239,.F.);
#201=ORIENTED_EDGE('',*,*,#238,.F.);
#202=ORIENTED_EDGE('',*,*,#243,.F.);
#203=ORIENTED_EDGE('',*,*,#245,.F.);
#204=ORIENTED_EDGE('',*,*,#241,.T.);
#205=ORIENTED_EDGE('',*,*,#245,.T.);
#206=ORIENTED_EDGE('',*,*,#246,.F.);
#207=ORIENTED_EDGE('',*,*,#240,.T.);
#208=ORIENTED_EDGE('',*,*,#246,.T.);
#209=ORIENTED_EDGE('',*,*,#247,.F.);
#210=ORIENTED_EDGE('',*,*,#248,.F.);
#211=ORIENTED_EDGE('',*,*,#249,.F.);
#212=ORIENTED_EDGE('',*,*,#247,.T.);
#213=ORIENTED_EDGE('',*,*,#249,.T.);
#214=ORIENTED_EDGE('',*,*,#250,.T.);
#215=ORIENTED_EDGE('',*,*,#250,.F.);
#216=ORIENTED_EDGE('',*,*,#248,.T.);
#217=ORIENTED_EDGE('',*,*,#251,.F.);
#218=ORIENTED_EDGE('',*,*,#252,.F.);
#219=ORIENTED_EDGE('',*,*,#251,.T.);
#220=ORIENTED_EDGE('',*,*,#252,.T.);
#221=VERTEX_POINT('',#403);
#222=VERTEX_POINT('',#406);
#223=VERTEX_POINT('',#408);
#224=VERTEX_POINT('',#411);
#225=VERTEX_POINT('',#413);
#226=VERTEX_POINT('',#415);
#227=VERTEX_POINT('',#418);
#228=VERTEX_POINT('',#420);
#229=VERTEX_POINT('',#426);
#230=VERTEX_POINT('',#430);
#231=VERTEX_POINT('',#434);
#232=VERTEX_POINT('',#437);
#233=VERTEX_POINT('',#439);
#234=VERTEX_POINT('',#443);
#235=VERTEX_POINT('',#447);
#236=VERTEX_POINT('',#450);
#237=EDGE_CURVE('',#221,#221,#253,.T.);
#238=EDGE_CURVE('',#222,#222,#254,.T.);
#239=EDGE_CURVE('',#223,#223,#255,.T.);
#240=EDGE_CURVE('',#224,#224,#256,.T.);
#241=EDGE_CURVE('',#225,#225,#257,.T.);
#242=EDGE_CURVE('',#226,#226,#258,.T.);
#243=EDGE_CURVE('',#227,#227,#259,.T.);
#244=EDGE_CURVE('',#228,#228,#260,.T.);
#245=EDGE_CURVE('',#229,#229,#261,.T.);
#246=EDGE_CURVE('',#230,#230,#262,.T.);
#247=EDGE_CURVE('',#231,#231,#263,.T.);
#248=EDGE_CURVE('',#232,#232,#264,.T.);
#249=EDGE_CURVE('',#233,#233,#265,.T.);
#250=EDGE_CURVE('',#234,#234,#266,.T.);
#251=EDGE_CURVE('',#235,#235,#267,.T.);
#252=EDGE_CURVE('',#236,#236,#268,.T.);
#253=CIRCLE('',#284,12.341);
#254=CIRCLE('',#286,13.341);
#255=CIRCLE('',#287,13.341);
#256=CIRCLE('',#289,1.4);
#257=CIRCLE('',#290,1.4);
#258=CIRCLE('',#291,15.25);
#259=CIRCLE('',#293,13.841);
#260=CIRCLE('',#294,15.25);
#261=CIRCLE('',#299,1.4);
#262=CIRCLE('',#302,1.4);
#263=CIRCLE('',#305,17.5);
#264=CIRCLE('',#307,11.);
#265=CIRCLE('',#308,17.5);
#266=CIRCLE('',#311,11.);
#267=CIRCLE('',#314,15.25);
#268=CIRCLE('',#316,15.25);
#269=INVISIBILITY((#270));
#270=PRESENTATION_LAYER_ASSIGNMENT('210','Layer 210',(#401));
#271=PRESENTATION_LAYER_ASSIGNMENT('1','Layer 1',(#81,#82,#83));
#272=STYLED_ITEM('',(#276),#401);
#273=STYLED_ITEM('',(#277),#81);
#274=STYLED_ITEM('',(#278),#82);
#275=STYLED_ITEM('',(#279),#83);
#276=PRESENTATION_STYLE_ASSIGNMENT((#280));
#277=PRESENTATION_STYLE_ASSIGNMENT((#64));
#278=PRESENTATION_STYLE_ASSIGNMENT((#65));
#279=PRESENTATION_STYLE_ASSIGNMENT((#66));
#280=POINT_STYLE('',#281,POSITIVE_LENGTH_MEASURE(3.),#282);
#281=PRE_DEFINED_POINT_MARKER_SYMBOL('plus');
#282=COLOUR_RGB('AQUAMARINE',0.2,0.669993133440146,0.469993133440146);
#283=AXIS2_PLACEMENT_3D('',#400,#322,#323);
#284=AXIS2_PLACEMENT_3D('',#402,#324,#325);
#285=AXIS2_PLACEMENT_3D('',#404,#326,#327);
#286=AXIS2_PLACEMENT_3D('',#405,#328,#329);
#287=AXIS2_PLACEMENT_3D('',#407,#330,#331);
#288=AXIS2_PLACEMENT_3D('',#409,#332,#333);
#289=AXIS2_PLACEMENT_3D('',#410,#334,#335);
#290=AXIS2_PLACEMENT_3D('',#412,#336,#337);
#291=AXIS2_PLACEMENT_3D('',#414,#338,#339);
#292=AXIS2_PLACEMENT_3D('',#416,#340,#341);
#293=AXIS2_PLACEMENT_3D('',#417,#342,#343);
#294=AXIS2_PLACEMENT_3D('',#419,#344,#345);
#295=AXIS2_PLACEMENT_3D('',#421,#346,#347);
#296=AXIS2_PLACEMENT_3D('',#422,#348,#349);
#297=AXIS2_PLACEMENT_3D('',#423,#350,#351);
#298=AXIS2_PLACEMENT_3D('',#424,#352,#353);
#299=AXIS2_PLACEMENT_3D('',#425,#354,#355);
#300=AXIS2_PLACEMENT_3D('',#427,#356,#357);
#301=AXIS2_PLACEMENT_3D('',#428,#358,#359);
#302=AXIS2_PLACEMENT_3D('',#429,#360,#361);
#303=AXIS2_PLACEMENT_3D('',#431,#362,#363);
#304=AXIS2_PLACEMENT_3D('',#432,#364,#365);
#305=AXIS2_PLACEMENT_3D('',#433,#366,#367);
#306=AXIS2_PLACEMENT_3D('',#435,#368,#369);
#307=AXIS2_PLACEMENT_3D('',#436,#370,#371);
#308=AXIS2_PLACEMENT_3D('',#438,#372,#373);
#309=AXIS2_PLACEMENT_3D('',#440,#374,#375);
#310=AXIS2_PLACEMENT_3D('',#441,#376,#377);
#311=AXIS2_PLACEMENT_3D('',#442,#378,#379);
#312=AXIS2_PLACEMENT_3D('',#444,#380,#381);
#313=AXIS2_PLACEMENT_3D('',#445,#382,#383);
#314=AXIS2_PLACEMENT_3D('',#446,#384,#385);
#315=AXIS2_PLACEMENT_3D('',#448,#386,#387);
#316=AXIS2_PLACEMENT_3D('',#449,#388,#389);
#317=AXIS2_PLACEMENT_3D('',#451,#390,#391);
#318=AXIS2_PLACEMENT_3D('',#452,#392,#393);
#319=AXIS2_PLACEMENT_3D('',#453,#394,#395);
#320=AXIS2_PLACEMENT_3D('',#454,#396,#397);
#321=AXIS2_PLACEMENT_3D('',#455,#398,#399);
#322=DIRECTION('',(0.,0.,1.));
#323=DIRECTION('',(1.,0.,0.));
#324=DIRECTION('',(-1.,0.,0.));
#325=DIRECTION('',(0.,0.,1.));
#326=DIRECTION('',(-1.,0.,0.));
#327=DIRECTION('',(0.,0.,1.));
#328=DIRECTION('',(-1.,0.,0.));
#329=DIRECTION('',(0.,0.,1.));
#330=DIRECTION('',(1.,0.,0.));
#331=DIRECTION('',(0.,0.,1.));
#332=DIRECTION('',(1.,0.,0.));
#333=DIRECTION('',(0.,0.,-1.));
#334=DIRECTION('',(1.,0.,0.));
#335=DIRECTION('',(0.,0.,-1.));
#336=DIRECTION('',(1.,0.,0.));
#337=DIRECTION('',(0.,0.,-1.));
#338=DIRECTION('',(1.,0.,0.));
#339=DIRECTION('',(0.,0.,-1.));
#340=DIRECTION('',(1.,0.,0.));
#341=DIRECTION('',(0.,0.,-1.));
#342=DIRECTION('',(1.,0.,0.));
#343=DIRECTION('',(0.,0.,1.));
#344=DIRECTION('',(1.,0.,0.));
#345=DIRECTION('',(0.,0.,-1.));
#346=DIRECTION('',(-1.,0.,0.));
#347=DIRECTION('',(0.,0.,1.));
#348=DIRECTION('',(1.,0.,0.));
#349=DIRECTION('',(0.,0.,-1.));
#350=DIRECTION('',(1.,0.,0.));
#351=DIRECTION('',(-1.08704711172771E-016,0.,-1.));
#352=DIRECTION('',(-1.,0.,0.));
#353=DIRECTION('',(0.,0.,1.));
#354=DIRECTION('',(1.,0.,0.));
#355=DIRECTION('',(0.,0.,-1.));
#356=DIRECTION('',(-1.,0.,0.));
#357=DIRECTION('',(0.,0.,1.));
#358=DIRECTION('',(1.,0.,0.));
#359=DIRECTION('',(0.,0.,-1.));
#360=DIRECTION('',(1.,0.,0.));
#361=DIRECTION('',(0.,0.,-1.));
#362=DIRECTION('',(-1.,0.,0.));
#363=DIRECTION('',(0.,0.,1.));
#364=DIRECTION('',(1.,0.,0.));
#365=DIRECTION('',(0.,0.,-1.));
#366=DIRECTION('',(-1.,0.,0.));
#367=DIRECTION('',(0.,0.,1.));
#368=DIRECTION('',(1.,0.,0.));
#369=DIRECTION('',(0.,0.,-1.));
#370=DIRECTION('',(-1.,0.,0.));
#371=DIRECTION('',(0.,0.,1.));
#372=DIRECTION('',(1.,0.,0.));
#373=DIRECTION('',(0.,0.,-1.));
#374=DIRECTION('',(-1.,0.,0.));
#375=DIRECTION('',(0.,0.,1.));
#376=DIRECTION('',(1.,0.,0.));
#377=DIRECTION('',(0.,0.,-1.));
#378=DIRECTION('',(-1.,0.,0.));
#379=DIRECTION('',(0.,0.,1.));
#380=DIRECTION('',(-1.,0.,0.));
#381=DIRECTION('',(0.,0.,1.));
#382=DIRECTION('',(-1.,0.,0.));
#383=DIRECTION('',(0.,0.,1.));
#384=DIRECTION('',(0.,0.,1.));
#385=DIRECTION('',(1.,0.,0.));
#386=DIRECTION('',(0.,0.,-1.));
#387=DIRECTION('',(-1.,0.,0.));
#388=DIRECTION('',(0.,0.,-1.));
#389=DIRECTION('',(-1.,0.,0.));
#390=DIRECTION('',(0.,0.,1.));
#391=DIRECTION('',(1.,0.,0.));
#392=DIRECTION('',(0.,0.,-1.));
#393=DIRECTION('',(-1.,0.,0.));
#394=DIRECTION('',(0.,-1.,0.));
#395=DIRECTION('',(0.,0.,-1.));
#396=DIRECTION('',(0.,1.,0.));
#397=DIRECTION('',(0.,0.,1.));
#398=DIRECTION('',(0.,0.,1.));
#399=DIRECTION('',(1.,0.,0.));
#400=CARTESIAN_POINT('',(0.,0.,0.));
#401=CARTESIAN_POINT('',(0.,0.,0.));
#402=CARTESIAN_POINT('',(0.,0.,0.));
#403=CARTESIAN_POINT('',(0.,0.,12.341));
#404=CARTESIAN_POINT('',(0.,0.,0.));
#405=CARTESIAN_POINT('',(12.5,0.,0.));
#406=CARTESIAN_POINT('',(12.5,0.,13.341));
#407=CARTESIAN_POINT('',(1.,0.,0.));
#408=CARTESIAN_POINT('',(1.,0.,13.341));
#409=CARTESIAN_POINT('',(0.,0.,0.));
#410=CARTESIAN_POINT('',(16.,-3.5,-4.8));
#411=CARTESIAN_POINT('',(16.,-3.5,-6.2));
#412=CARTESIAN_POINT('',(16.,-3.5,4.8));
#413=CARTESIAN_POINT('',(16.,-3.5,3.4));
#414=CARTESIAN_POINT('',(16.,0.,0.));
#415=CARTESIAN_POINT('',(16.,0.,-15.25));
#416=CARTESIAN_POINT('',(16.,0.,0.));
#417=CARTESIAN_POINT('',(13.,0.,0.));
#418=CARTESIAN_POINT('',(13.,0.,13.841));
#419=CARTESIAN_POINT('',(13.,0.,0.));
#420=CARTESIAN_POINT('',(13.,0.,-15.25));
#421=CARTESIAN_POINT('',(13.,0.,0.));
#422=CARTESIAN_POINT('',(13.,0.,0.));
#423=CARTESIAN_POINT('',(1.,0.,0.));
#424=CARTESIAN_POINT('',(12.5,0.,0.));
#425=CARTESIAN_POINT('',(18.3,-3.5,4.8));
#426=CARTESIAN_POINT('',(18.3,-3.5,3.4));
#427=CARTESIAN_POINT('',(18.3,-3.5,4.8));
#428=CARTESIAN_POINT('',(18.3,-3.5,4.8));
#429=CARTESIAN_POINT('',(18.3,-3.5,-4.8));
#430=CARTESIAN_POINT('',(18.3,-3.5,-6.2));
#431=CARTESIAN_POINT('',(18.3,-3.5,-4.8));
#432=CARTESIAN_POINT('',(18.3,-3.5,-4.8));
#433=CARTESIAN_POINT('',(19.,0.,0.));
#434=CARTESIAN_POINT('',(19.,0.,17.5));
#435=CARTESIAN_POINT('',(19.,0.,0.));
#436=CARTESIAN_POINT('',(0.,-4.33680868994202E-016,8.67361737988404E-016));
#437=CARTESIAN_POINT('',(0.,-4.33680868994202E-016,11.));
#438=CARTESIAN_POINT('',(0.,0.,0.));
#439=CARTESIAN_POINT('',(0.,0.,-17.5));
#440=CARTESIAN_POINT('',(0.,0.,0.));
#441=CARTESIAN_POINT('',(0.,0.,0.));
#442=CARTESIAN_POINT('',(-1.,-4.33680868994202E-016,8.67361737988404E-016));
#443=CARTESIAN_POINT('',(-1.,-4.33680868994202E-016,11.));
#444=CARTESIAN_POINT('',(-1.,-4.33680868994202E-016,8.67361737988404E-016));
#445=CARTESIAN_POINT('',(0.,-4.33680868994202E-016,8.67361737988404E-016));
#446=CARTESIAN_POINT('',(0.,0.,-80.));
#447=CARTESIAN_POINT('',(15.25,0.,-80.));
#448=CARTESIAN_POINT('',(0.,0.,-80.));
#449=CARTESIAN_POINT('',(0.,0.,0.));
#450=CARTESIAN_POINT('',(-15.25,0.,0.));
#451=CARTESIAN_POINT('',(0.,0.,0.));
#452=CARTESIAN_POINT('',(0.,0.,0.));
#453=CARTESIAN_POINT('',(0.,0.,-67.));
#454=CARTESIAN_POINT('',(1.77635683940025E-015,3.30681662608079E-014,1.));
#455=CARTESIAN_POINT('',(0.,0.,0.));
#456=MECHANICAL_DESIGN_GEOMETRIC_PRESENTATION_REPRESENTATION('',(#272),#460);
#457=MECHANICAL_DESIGN_GEOMETRIC_PRESENTATION_REPRESENTATION('',(#273),#461);
#458=MECHANICAL_DESIGN_GEOMETRIC_PRESENTATION_REPRESENTATION('',(#274),#462);
#459=MECHANICAL_DESIGN_GEOMETRIC_PRESENTATION_REPRESENTATION('',(#275),#463);
#460=(
GEOMETRIC_REPRESENTATION_CONTEXT(3)
GLOBAL_UNCERTAINTY_ASSIGNED_CONTEXT((#464))
GLOBAL_UNIT_ASSIGNED_CONTEXT((#473,#469,#468))
REPRESENTATION_CONTEXT('QRA4-kpl','TOP_LEVEL_ASSEMBLY_PART')
);
#461=(
GEOMETRIC_REPRESENTATION_CONTEXT(3)
GLOBAL_UNCERTAINTY_ASSIGNED_CONTEXT((#465))
GLOBAL_UNIT_ASSIGNED_CONTEXT((#473,#469,#468))
REPRESENTATION_CONTEXT('014005_00','COMPONENT_PART')
);
#462=(
GEOMETRIC_REPRESENTATION_CONTEXT(3)
GLOBAL_UNCERTAINTY_ASSIGNED_CONTEXT((#466))
GLOBAL_UNIT_ASSIGNED_CONTEXT((#473,#469,#468))
REPRESENTATION_CONTEXT('014004_00','COMPONENT_PART')
);
#463=(
GEOMETRIC_REPRESENTATION_CONTEXT(3)
GLOBAL_UNCERTAINTY_ASSIGNED_CONTEXT((#467))
GLOBAL_UNIT_ASSIGNED_CONTEXT((#473,#469,#468))
REPRESENTATION_CONTEXT('014003_00','COMPONENT_PART')
);
#464=UNCERTAINTY_MEASURE_WITH_UNIT(LENGTH_MEASURE(2.E-005),#473,
'DISTANCE_ACCURACY_VALUE','Maximum Tolerance applied to model');
#465=UNCERTAINTY_MEASURE_WITH_UNIT(LENGTH_MEASURE(2.E-005),#473,
'DISTANCE_ACCURACY_VALUE','Maximum Tolerance applied to model');
#466=UNCERTAINTY_MEASURE_WITH_UNIT(LENGTH_MEASURE(2.E-005),#473,
'DISTANCE_ACCURACY_VALUE','Maximum Tolerance applied to model');
#467=UNCERTAINTY_MEASURE_WITH_UNIT(LENGTH_MEASURE(2.E-005),#473,
'DISTANCE_ACCURACY_VALUE','Maximum Tolerance applied to model');
#468=(
NAMED_UNIT(*)
SI_UNIT($,.STERADIAN.)
SOLID_ANGLE_UNIT()
);
#469=(
CONVERSION_BASED_UNIT('DEGREE',#471)
NAMED_UNIT(#470)
PLANE_ANGLE_UNIT()
);
#470=DIMENSIONAL_EXPONENTS(0.,0.,0.,0.,0.,0.,0.);
#471=PLANE_ANGLE_MEASURE_WITH_UNIT(PLANE_ANGLE_MEASURE(0.0174532925),#472);
#472=(
NAMED_UNIT(*)
PLANE_ANGLE_UNIT()
SI_UNIT($,.RADIAN.)
);
#473=(
LENGTH_UNIT()
NAMED_UNIT(*)
SI_UNIT(.MILLI.,.METRE.)
);
ENDSEC;
END-ISO-10303-21;
